PDA

Orijinalini görmek için tıklayınız : Emre Aydın - Afili Yalnızlık



zıIırT.!
07 Aralık 2009, 13:19
intro

e---------------------------------------------------------------
B---------------------------------------------------------------
G---------------------------------------------------------------
D---------------------------------------------------------------
A--7----5-7---3--5---2--3-2-0---7---5-7---3--5---2--3-2-0-------
E---------------------------------------------------------------


ve sonrası :) ..
e----------------------------------------------------------------
B----------------------------------------------------------------
G---16-16-16\14---14-14\12---12-12-12\10---10-10\9---------------
D----------------------------------------------------------------
A---14-14 14\12---12-12\10---10-10-10\8----8--8\7----------------
E----------------------------------------------------------------



e----------------------------------------------------------------
B----------------------------------------------------------------
G---9/16-16-16-16\14---14-14\12---12-12-12\10---10-10/16--14~----
D----------------------------------------------------------------
A---7/14-14 14-14\12---12-12\10---10-10-10\8-----8--8/14--12~----
E----------------------------------------------------------------



Çift tel zor gelirse tek telden de çalınabilir. G teli daha uygun.