PDA

Orijinalini görmek için tıklayınız : sebebsiz fırtına(İntro) - Yaşar



Birazdaböyle.
08 Haziran 2009, 20:15
sebebsiz fırtına(İntro)
Yaşar



E--3------3------5-----7------7--------7---------|
B------0----0------------------------------------|
G----0--------0------------0--------0------------|
D--2---------------0----0-------0----------------|
A------------------------------------------------|
E------------------------------------------------|


E---3---------3---3----3/5---5/2--------2-------|
B---------0-------------------------0-----------|
G------0--------------------------0-------------|
D---2--------------------------0----------------|
A-----------------------------------------------|
E-----------------------------------------------|

Aslında bu şarkı arpejli ve sololu bir introyla başlıyor.Ancak bu da hoş oldu.Bir deneyin.Eksiklikler varsa kulağınıza göre tamamlayabilirsiniz...